Icon--down-black-48x48 IC-logout IC-up IC_check

Ankündigung

Einklappen
Keine Ankündigung bisher.

Tauziehen XIII - Füchse gegen Wölfe - Der Kampf geht weiter!!! [Userspiel]

Einklappen
Dieses Thema ist geschlossen.
X
X
Einklappen
 
  • Filter
  • Zeit
  • Anzeigen
Alles löschen
neue Beiträge

    Hast wieder schöne Projekte eingestellt.
    -2--------------------------------------------------------------------------------------------------------------------354

    Kommentar


      -2---------------------------...-352-...---------------------------------
      ja hatte bisschen Zeit

      Kommentar


        -2---------------------------------------------------------------------------------------------------------350
        Deine Zeit möcht ich haben. Ist der Anpressdruck bei den Klemmen gut?

        Kommentar


          -2---------------------------...-348-...---------------------------------
          na aber... hast du dir das Video angeschaut was die ab kann?

          Kommentar


            Hi Leute, noch jemand da?
            +1================================================ =========349

            Kommentar


              -2---------------------------...-347-...---------------------------------
              hi fuffy

              Kommentar


                Hi Troppy
                +1================================================ =========348

                Kommentar


                  -2---------------------------...-346-...---------------------------------

                  Kommentar


                    Hast du deine Zwinge fertig, und bist du zufrieden?
                    +1================================================ =========347

                    Kommentar


                      -2---------------------------...-345-...---------------------------------
                      ja alles fertig und zufrieden ich denke ich werde mir die Griffe aus Holz bauen

                      Kommentar


                        Hi Fuffy
                        -2-----------------------------------------------------------------------------------------------------------------343
                        Troppy Video hatte ich übersehen. Hab ich gerade nachgeholt.

                        Kommentar


                          ++++++++++++++++++++++++++++++++++++++++348+++++++ +++++++++++++++++++++++++++++

                          Kommentar


                            -2-----------------------------------------------------------------------------------------------------------342

                            Kommentar


                              Hi Funkenmann, Hi Janinez
                              Ah ich habe gerade gesehen, das du die Zwingen schon eingestellt hast. Supi, bin gerade am schauen
                              +1================================================ =========343

                              Kommentar


                                -2---------------------------...-341-...---------------------------------

                                Kommentar

                                Lädt...
                                X